Ed Sheeran - Give Me Love Guitar Chords | World Chord

Ed Sheeran – Give Me Love

ALL CHORDS , GENERAL , POP

Ed Sheeran – Give Me Love


















Capo : 2




[Intro]

             G#m7  E   B5   Bmaj7
e|--------------------------------------------|
B|------------4----0--------------------------|
G|------------4----1---4---3--4---------------|
D|------------6----2---4---4--4---------------|
A|--2--------------2---2---2--2---------------|
E|----2-3-4---4----0--------------------------|

G#m7   E   B5  B7+
G#m7   E   B5  B7+

[Verse]

G#m7         E           B5  Bmaj7
 Give me love, like her
G#m7            E                   B5  Bmaj7
 Cos lately I've been waking up alone
G#m7             E                      B5  Bmaj7
The pain splatter tear drops on my shirt
G#m7             E          B5  Bmaj7
I told you I'd let them go

[Pre-Chorus]

             C#m
And that I'll fight my corner
        E
Maybe tonight I'll call you
         B                    F#
After my blood, turns into alcohol
C#m                     E
No, I just wanna hold you

[Chorus]

B             C#m       E
Give a little time to me (We'll burn this out)
B          C#m        E
We'll play hide and seek (To turn this around)
B         C#m           E
And all I want is the taste that your lips allow

[Bridge]

G#m     F#    E
My my my my give me love
G#m     F#    E
My my my my give me love
Riff 1
My my my my give me love
Riff 1
My my my my give me love

[Riff 1]

e|-----------------------------------------------------------|
B|-----------------------------------------------------------|
G|-----------------------------------------------------------|
D|-----------------------------------------------------------|
A|-------------------2-2-2-2-2-2------------------2---2------|
E|---4-4-4---0-0-0-----------------4-4-4---0-0-0------2-3-4--|

[Verse]

G#m7         E           B5  Bmaj7
Give me love like never before
G#m7         E           B5 Bmaj7
Cos lately I've been craving more
G#m7               E                           B5  Bmaj7
And It's been a while but I still feel the same
G#m7          E           B5 Bmaj7
Maybe I should let you go

[Pre-Chorus]

             C#m
You know I'll fight my corner,
        E
And that tonight I'll call you
         B                         F#
After my blood, is drowning in alcohol
C#m                    E
No,I just wanna hold you

[Chorus]

B             C#m       E
Give a little time to me  (We'll burn this out)
B             C#m       E
We'll play hide and seek (To turn this around)
B             C#m       E
And all I want is the taste That your lips allow
G#m     F#    E
My my my my give me love
B             C#m       E
Give a little time to me  (We'll burn this out)
B             C#m       E
We'll play hide and seek (To turn this around)
B             C#m       E
And all I want is the taste That your lips allow
G#m     F#    E
My my my my give me love

[Bridge]

Riff 1
My my my my give me love
Riff 1
My my my my give me love
Riff 1
My my my my give me love
Riff 1
My my my my give me love
G#m              F#
Oh My my Oh my my give me love lover
G#m              F#
Oh My my Oh my my give me love lover
G#m              F#
Oh My my Oh my my give me love lover
G#m              F#
Oh My my Oh my my give me love lover
G#m              F#
Oh My my Oh my my give me love lover
G#m              F#
Oh My my Oh my my give me love lover
G#m              F#
Oh My my Oh my my give me love lover
G#m              F#
Oh My my Oh my my give me love lover
G#m              F#
Oh My my Oh my my give me love lover
G#m              F#
Oh My my Oh my my give me love lover
G#m              F#
Oh My my Oh my my give me love lover
G#m              F#
Oh My my Oh my my give me love lover
G#m              F#
Oh My my Oh my my give me love lover

[Outro]

G#m     E   B       F#
My my my my give me love
G#m     E   B       F#
My my my my give me love
G#m     E   B       F#
My my my my give me love
G#m     E   B       F#
My my my my give me love

[Bridge]

       G#m                                   F#
e|--------------------------------------------------|
B|--------------------------------------------------|
G|----4----4-4----4----4-4----4----4-4----3-3-3-----|
D|----4h6--6-6----4h6--6-6----4h6--6-6----4-4-4-----|
A|----4h6--6-6----4h6--6-6----4h6--6-6----4-4-4-----|
E|----4----4-4----4----4-4----4----4-4----2-2-2-----|




Tags:

Leave a Reply

Your email address will not be published. Required fields are marked *