Harry Styles - Golden Gitar Akorları | World Chord

Harry Styles – Golden

GENEL , POP , TÜM AKORLAR , YABANCI

Harry Styles – Golden














[Intro]

C  C  C
D  D   Bm7
       Hey!

C   Em   D   Bm

[Verse 1]

C                             Em7      D
  Golden, golden, golden as I open my eyes
                                Bm7        C
Hold it, focus, hoping, take me back to the light
                        Em7
I know you were way too bright for me
D                                      Bm7      C
I'm hopeless, broken, so you wait for me in the sky
         Em7        D
Brown my skin just right

e|---------------------------------------------------------------------------|
B|-10/12--10\8--------------7\5/7/10---12------------------------------------|
G|-------------7-7/9---------------------------------------------------------|
D|---------------------------------------------------------------------------|
A|---------------------------------------------------------------------------|
E|---------------------------------------------------------------------------|

D               C
You're so golden

[Chorus]

          Em7  D
You're so golden

I'm out of my head, and I know that you're scared
        Bm7
Because hearts get broken

[Verse 2]

C
I don't want to be alone                

e|------15-19-12----------15-19-14---------------22-17-----------------------|
B|---------------------------------------------------------------------------|
G|---------------------------------------------------------------------------|
D|---------------------------------------------------------------------------|
A|---------------------------------------------------------------------------|
E|---------------------------------------------------------------------------|          

                         Em7      D
I don't want to be alone when it ends
 D
Don't wanna let you know

I don't want to be alone
Bm7  C
But I can feel it take a hold (I can feel it take a hold)

e|---------------------------------------------------------------------------|
B|-10/12--10\8---------------------------------------------------------------|
G|-------------7-7/9~--------------------------------------------------------|
D|---------------------------------------------------------------------------|
A|---------------------------------------------------------------------------|
E|---------------------------------------------------------------------------|

I can feel you take control (I can feel you take control)
   Em7    D
Of who I am, and all I've ever known

e|---------------------------------------------------------------------------|
B|------7\5/7/10~--12--------------------------------------------------------|
G|---------------------------------------------------------------------------|
D|---------------------------------------------------------------------------|
A|---------------------------------------------------------------------------|
E|---------------------------------------------------------------------------|

Lovin' you's the antidote
D     C
Golden

[Chorus]

C          Em7   D
 You're so golden

I don't want to be alone
          Bm7    C
You're so golden
          Em7   D
You're so golden
 D
I'm out of my head, and I know that you're scared
                   Bm7
Because hearts get broken

[Bridge]

C
(Golden, golden, golden, golden)
C                             Em7
(Golden, golden, golden, golden)
D
(Golden, golden, golden, golden)
D                             Bm7
(Golden, golden, golden, golden)
C
(Golden, golden, golden, golden)
C                              Em7
(Golden, golden, golden, golden)
D
(Golden, golden, golden, golden)
D
I know that you're scared because I'm so open

e|------17---15--------17---14-------17----15--------------------------------|
B|---------------------------------------------------------------------------|
G|---------------------------------------------------------------------------|
D|---------------------------------------------------------------------------|
A|---------------------------------------------------------------------------|
E|---------------------------------------------------------------------------|

[Chorus]

C          Em7   D
 You're so golden
 D
I don't want to be alone
          Bm7   C
You're so golden
 C
You're so golden
          Em7   D
You're so golden
 D
I'm out of my head, and I know that you're scared
                   Bm7
Because hearts get broken

e|------17---15--------17---14-------17----15--------------------------------|
B|---------------------------------------------------------------------------|
G|---------------------------------------------------------------------------|
D|---------------------------------------------------------------------------|
A|---------------------------------------------------------------------------|
E|---------------------------------------------------------------------------|

[Outro]

C  C  Em7
D  D  D





Tags:

Bir cevap yazın

E-posta hesabınız yayımlanmayacak. Gerekli alanlar * ile işaretlenmişlerdir