James Blunt - You're Beatiful Gitar Akorları | World Chord biricerik

James Blunt – You’re Beatiful

GENEL , ROCK , SLOW , TÜM AKORLAR , YABANCI

James Blunt – You’re Beatiful





Ritm : A-AAY-AYAY-AAY
A : Aşağı
Y : Yukarı


Kapo : 3


İntro

E|------------------------------------------|

B|---1-0-1-------1-0-1-3-----1-0-1----------|

G|------------------------------------------|

D|--2----------2-----------------------2-3--| 

A|------------------------------------------|

E|------------------------------------------|



E|-------------------------------------------|

B|---1-0-1---*----1-0-1-3-----1-0-1----------|

G|-------------------------------------------|

D|--2-----------2-----------------------2-3--| 

A|-------------------------------------------|

E|-------------------------------------------|



C
 My life is brilliant
G
 My love is pure
Am
 I saw an angel
F
 Of that I'm sure
    C
She smiled at me on the subway
        G
She was with another man
    Am
But I won't lose no sleep on that
      Am
'Cause I've got a plan

F             G
 You're beautiful
C
 You're beautiful
F            G           C
 You're beautiful, it's true
  F        G
I saw your face
     C        Am
In a crowded place
      F          G       Am
And I don't know what to do
            F     G       C
'Cause I'll never be with you


E|------------------------------------------|

B|---1-0-1-------1-0-1-3-----1-0-1----------|

G|------------------------------------------|

D|--2----------2-----------------------2-3--| 

A|------------------------------------------|

E|------------------------------------------|


         C
Yes, she caught my eye
       G
As we walked on by
          Am
She could see from my face that I was
F
 Flying high
    C                       G
And I don't think that I'll see her again
    Am                           
But we shared a moment that will last to the end

F               G
 You're beautiful
C
 You're beautiful
F                G        C
 You're beautiful, it's true
  F        G
I saw your face
     C        Am
In a crowded place
      F          G       Am
And I don't know what to do
            F     G        C
'Cause I'll never be with you

F     Am    F     Am    F     Am    Dm  G
La-la-la-la La-la-la-la La-la-la-la La-a

F             G
 You're beautiful
C
 You're beautiful
F              G         C
 You're beautiful, it's true
      F             G
There must be an angel
       C             Am
With a smile on her face
         F                                G  
When she thought up that I should be with you


E|-----------------------|

B|--5---5----3---3----5--|

G|--5---5----4-4-4----5--|

D|--5-5-5----5-5-5----7--| 

A|-----------------------|

E|-----------------------|


         F       G         Am
But it's time to face the truth
        F     G        C
I will never be with you



Tags:

Bir cevap yazın

E-posta hesabınız yayımlanmayacak. Gerekli alanlar * ile işaretlenmişlerdir